for those of you who wanna be like YOH or NAOTO

Page 1 of 2 1, 2  Next

Go down

for those of you who wanna be like YOH or NAOTO Empty for those of you who wanna be like YOH or NAOTO

Post by Monn on Fri Feb 27, 2009 6:23 am

apparently OR released TWO sheet music books on February 10th.

for those of you who wanna be like YOH or NAOTO NEOIPS-420
the first one is ORANGE BALL sheet music book which contains tablature for songs:
1. Sojyuko
2. Gadget Groove
3. Kiri Kiri Mai
4. Flower Garden
5. Chudoku
6. Velocity
7. Funk Tune


for those of you who wanna be like YOH or NAOTO NEOIPS-408
the second one, which is my most favorite live of all time, is NATURAL sheet music book:
1. Yumekaze
2. Muzin
3. Onegai! Senorita
4. Winter Winner
5. CRAZY BAND
6. Ame
7. GOD70
8. HYSTERIC TAXI
9. pe nyom pong
10. Sakazuki Jammer
11. Asterisk
12. sunrise
13. Utopia
14. BETWEEN
15. recycle
16. Kizuna
17. Love Parade
18. Natural Pop
19. Kirikirimai-Fantastic Four Remix-

each book costs (2426yen Tax incl.) and you can order them at cdjapan.

ORANGE BALL sheet music: http://www.cdjapan.co.jp/detailview.html?KEY=NEOIPS-420
NATURAL sheet music: http://www.cdjapan.co.jp/detailview.html?KEY=NEOIPS-408

Very Happy
Monn
Monn
Ika Summer

Posts : 650
Join date : 2008-02-01
Age : 28

http://www.veoh.com/users/BlackMonn

Back to top Go down

for those of you who wanna be like YOH or NAOTO Empty Re: for those of you who wanna be like YOH or NAOTO

Post by IchaIchaMako on Fri Feb 27, 2009 8:58 am

oh damn! i want NATURAL!!! but i havent been playing guitar for a longgggggg time XD esp cuz now i grow my nails lol
IchaIchaMako
IchaIchaMako
ORANGE RANGE

Posts : 2386
Join date : 2009-01-25
Location : Icha Icha Paradise with Naoto-sama

http://justmako.livejournal.com

Back to top Go down

for those of you who wanna be like YOH or NAOTO Empty Re: for those of you who wanna be like YOH or NAOTO

Post by tsuki hokama on Sun Mar 01, 2009 8:54 am

thanks for the info! *.* I've always asked myself where could I buy OR's books


I love you
tsuki hokama
tsuki hokama
Locolotion

Posts : 187
Join date : 2008-05-01
Age : 29
Location : Spain

http://mitsuki-hokama.spaces.live.com/

Back to top Go down

for those of you who wanna be like YOH or NAOTO Empty Re: for those of you who wanna be like YOH or NAOTO

Post by Monn on Tue Mar 03, 2009 3:27 am

^sheet music book is a new offer at cdjapan.
Monn
Monn
Ika Summer

Posts : 650
Join date : 2008-02-01
Age : 28

http://www.veoh.com/users/BlackMonn

Back to top Go down

for those of you who wanna be like YOH or NAOTO Empty Re: for those of you who wanna be like YOH or NAOTO

Post by Maru on Tue Mar 03, 2009 3:32 pm

i have a question: this books have pics?????????

or, what about that??????

sorry my ignorance!!!!! XD
Maru
Maru
Kizuna

Posts : 383
Join date : 2008-07-15
Age : 31
Location : Mexico

Back to top Go down

for those of you who wanna be like YOH or NAOTO Empty Re: for those of you who wanna be like YOH or NAOTO

Post by IchaIchaMako on Tue Mar 03, 2009 7:52 pm

its music sheet book. um its like when u play piano or guitar or bass. well i can only read guitar tabs anyway XD i cant read partiture XD
IchaIchaMako
IchaIchaMako
ORANGE RANGE

Posts : 2386
Join date : 2009-01-25
Location : Icha Icha Paradise with Naoto-sama

http://justmako.livejournal.com

Back to top Go down

for those of you who wanna be like YOH or NAOTO Empty Re: for those of you who wanna be like YOH or NAOTO

Post by tsuki hokama on Wed Mar 04, 2009 3:30 am

owooh o.o thanks 4 da info.. Like a Star @ heaven hum.. then that's something new in da web! great!
tsuki hokama
tsuki hokama
Locolotion

Posts : 187
Join date : 2008-05-01
Age : 29
Location : Spain

http://mitsuki-hokama.spaces.live.com/

Back to top Go down

for those of you who wanna be like YOH or NAOTO Empty Re: for those of you who wanna be like YOH or NAOTO

Post by kaoran-kun on Thu Mar 26, 2009 4:52 pm

So with the book you can play the piano too??
*_______*
Id like to play Kizuna
kaoran-kun
kaoran-kun
Michishirube

Posts : 51
Join date : 2009-03-23
Age : 25
Location : Mexico!!

Back to top Go down

for those of you who wanna be like YOH or NAOTO Empty Re: for those of you who wanna be like YOH or NAOTO

Post by Monn on Sun Apr 05, 2009 5:24 am

the description says "includes guitar and bass tablatures"

i take it as it's not made for pianists.
Monn
Monn
Ika Summer

Posts : 650
Join date : 2008-02-01
Age : 28

http://www.veoh.com/users/BlackMonn

Back to top Go down

for those of you who wanna be like YOH or NAOTO Empty Re: for those of you who wanna be like YOH or NAOTO

Post by IchaIchaMako on Sun Apr 05, 2009 10:45 pm

ahhh i c so its guitar n bass tabs. ugh i wish im still playing guitar now... T_T
IchaIchaMako
IchaIchaMako
ORANGE RANGE

Posts : 2386
Join date : 2009-01-25
Location : Icha Icha Paradise with Naoto-sama

http://justmako.livejournal.com

Back to top Go down

for those of you who wanna be like YOH or NAOTO Empty Re: for those of you who wanna be like YOH or NAOTO

Post by JenHokama on Thu Apr 16, 2009 3:43 pm

yopyopyop hey do u have any information about TWISTER tabs 4 guitar?
i dont want to play viva rock coz the 1st OR i want to play is TWISTER but i cant find it anywayT^T
please if anyone knows...
JenHokama
JenHokama
Ikenai Taiyō

Posts : 832
Join date : 2009-01-29
Age : 25
Location : México

Back to top Go down

for those of you who wanna be like YOH or NAOTO Empty Re: for those of you who wanna be like YOH or NAOTO

Post by JenHokama on Mon Jul 20, 2009 11:17 am

welll actually i have some tabs but i dont know if they r the same...i think there r some little mistakes coz i tried to play them but i dont know...maybe im not playing it prpperly of there are really some mistakes...
well, here u have one and maybe anyone can help me to correct it or tell which the problem...

CHESTO
Intro:

| ------------------------ |
| ------------------------ |
| ------------------------ |
| -------9-9---9---------- | x8
| ---7-7-----7---777-10--- |
| ------------------------ |


Intermission:

| -----------------------|----------------------- |
| -----------------------|----------------------- |
| -----------------------|----------------------- |
| -----------------------|----------------------- | x2
| ---5p2-2--5p2-2-2-8-8--|--5p2-2--5p2-2-2-4-5--- |
| ---5p2-2--5p2-2-2-8-8--|--5p2-2--5p2-2-2-4-5--- |


Verse:

| ------------------- |
| ------------------- |
| ------------------- |
| -------------5^---- | x7
| ---2-2--2-2-------- |
| ---2-2--2-2-------- |

| -------------- |
| -------------- |
| -------------- |
| -------------- |
| ---2-2--2-2--- |
|---2-2--2-2---- |


Chorus:

| -----------------------|----------------------- |
| -----------------------|----------------------- |
| -----------------------|----------------------- |
| -----------------------|----------------------- | x2
| ---5p2-2--5p2-2-2-8-8--|--5p2-2--5p2-2-2-4-5--- |
| ---5p2-2--5p2-2-2-8-8--|--5p2-2--5p2-2-2-4-5--- |

| -----------------------------|----------------------------- |
| -----------------------------|----------------------------- |
| -----------------------------|----------------------------- |
| -----------------------------|----------------------------- | x2
| ---2-2-2-5p2-2-2--2-5p2-8-8--|--2-2-2-5p2-2-2--2-5p2-4-5--- |
| ---2-2-2-5p2-2-2--2-5p2-8-8--|--2-2-2-5p2-2-2--2-5p2-4-5--- |


Intermission:

| ------------------------ |
| ------------------------ |
| ------------------------ |
| -------9-9---9---------- |
| ---7-7-----7---777-10--- |
| ------------------------ |

| -----------------------------|----------------------------- |
| -----------------------------|----------------------------- |
| -----------------------------|----------------------------- |
| -----------------------------|----------------------------- | x2
| ---2-2-2-5p2-2-2--2-5p2-8-8--|--2-2-2-5p2-2-2--2-5p2-4-5--- |
| ---2-2-2-5p2-2-2--2-5p2-8-8--|--2-2-2-5p2-2-2--2-5p2-4-5--- |

| ------------------------------ |
| ------------------------------ |
| ------------------------------ |
| ------------------------------ |
| ------------------------------ |
| ---2-2-2-5p2-2-2--2-5p2-4-5--- |
. . . . . . . . . . . .


2nd Verse:

| ------------------- |
| ------------------- |
| ------------------- |
| -------------5^---- | x4
| ---2-2--2-2-------- |
| ---2-2--2-2-------- |

| -------------------- |
| -------------------- |
| -------------------- |
| -------9-9---9------ | x3
| ---7-7-----77--10--- |
| -------------------- |

| -------------- |
| -------------- |
| -------------- |
| -------------- |
| ---2-2--2-2--- |
| ---2-2--2-2--- |


Chorus:

| -----------------------|----------------------- |
| -----------------------|----------------------- |
| -----------------------|----------------------- |
| -----------------------|----------------------- | x2
| ---5p2-2--5p2-2-2-8-8--|--5p2-2--5p2-2-2-4-5--- |
| ---5p2-2--5p2-2-2-8-8--|--5p2-2--5p2-2-2-4-5--- |

| -----------------------------|----------------------------- |
| -----------------------------|----------------------------- |
| -----------------------------|----------------------------- |
| -----------------------------|----------------------------- | x4
| ---2-2-2-5p2-2-2--2-5p2-8-8--|--2-2-2-5p2-2-2--2-5p2-4-5--- |
| ---2-2-2-5p2-2-2--2-5p2-8-8--|--2-2-2-5p2-2-2--2-5p2-4-5--- |
JenHokama
JenHokama
Ikenai Taiyō

Posts : 832
Join date : 2009-01-29
Age : 25
Location : México

Back to top Go down

for those of you who wanna be like YOH or NAOTO Empty Re: for those of you who wanna be like YOH or NAOTO

Post by JenHokama on Mon Jul 20, 2009 11:19 am

this is easy

KIRIKIRIMAI
G||------------------------------------------------|
D||------------------------------------------------|
A||----1-2-3-2-1-----1-2-3-2-1---------------------|
E||--3-------------3-----------4-------------------|

G||------------------------------------------------|
D||------------------------------------------------|
A||------------------------------------------------|
E||--4-4--1--3-3-3---------------------------------|
JenHokama
JenHokama
Ikenai Taiyō

Posts : 832
Join date : 2009-01-29
Age : 25
Location : México

Back to top Go down

for those of you who wanna be like YOH or NAOTO Empty Re: for those of you who wanna be like YOH or NAOTO

Post by JenHokama on Mon Jul 20, 2009 11:19 am

MICHISHIRUBE
Intro
G||-----------------------------------------------|
D||-----------------------------------------------|
A||-----------------------------------------------|
E||------0~------------------5~-----7~-----777777-|

Intro pt.2
G||--------------------------------------------------|
D||--------------------------------------------------|
A||--------------------------------------------------|
E||--00-00000-55-55555-99-99999-7-777777-0~----------|

Verse
G||--------------------------------------------------|
D||--------------------------------------------------| x4
A||-------------44-44-44-44--------------------------|
E||-00-00-00-00--------------------------------------|

Bridge
G||------------------------------------------------------|
D||------------------------------------------------------|
A||------------------------------------------------------|
E||-55-5-55555-5-555-44-4-44444-4-444-22-2-2222222-2-222-|

G||--------------------------------------------------|
D||--------------------------------------------------|
A||--------------------------------------------------|
E||-7-7-7-7/[12]-[12][12][12][12][12]-9-77-----------|

Chorus
G||--------------------------------------------------|
D||--------------------------------------------------| x2
A||-------------------44444444-33333333--------------|
E||-00000000-55555555--------------------------------|

Intro pt.2**
G||--------------------------------------------------|
D||--------------------------------------------------| x2
A||--------------------------------------------------|
E||--00-00000-55-55555-99-99999-55-55555-------------|

*Instant transition* to Verse x4
Bridge

Chorus*
G||--------------------------------------------------|
D||--------------------------------------------------|
A||-------------------44444444-33333333--------------|
E||-00000000-55555555--------------------------------|

G||--------------------------------------------------|
D||--------------------------------------------------|
A||-------------------44444444-33333333--------------|
E||-00000000-55555555-------------------0~-----------|

Interlude
G||--------------------------------------------------|
D||--------------------------------------------------| x2
A||-------------------44444444-33333333--------------|
E||-0/5~--05-05-0567777777776777777------------------|
Chorus x2
Intro Pt.2** x2
JenHokama
JenHokama
Ikenai Taiyō

Posts : 832
Join date : 2009-01-29
Age : 25
Location : México

Back to top Go down

for those of you who wanna be like YOH or NAOTO Empty Re: for those of you who wanna be like YOH or NAOTO

Post by JenHokama on Mon Jul 20, 2009 11:20 am

VIVA ROCK
Tuning: E B G D A D

Riff A
e|--------|
B|--------|
G|--------|
D|--------|
A|-7-75-53|
E|-7-75-53|

Riff B
e|---------------------------------------------|
B|---------------------------------------------|
G|---------------------------------------------|
D|---------------------------------------------|
A|-4-xxx-4-xxx-4-xxx-9\7--4-xxx-4-xxx-4-xxx-2/3|
E|-4-xxx-4-xxx-4-xxx-9\7--4-xxx-4-xxx-4-xxx-2/3|

Riff C
e|--------------------------------|
B|--------------------------------|
G|--------------------------------|
D|--------------------------------|
A|-7-7-7-7-5-5-5-5-3-3-3-3-3-3-3-3|
E|-7-7-7-7-5-5-5-5-3-3-3-3-3-3-3-3|(2x)

And then:
e|------------|
B|------------|
G|------------|
D|------------|
A|-6-6--5--5-5|
E|-6-6--5--5-5|

Riff D
e|--------------------------------|
B|--------------------------------|
G|--------------------------------|
D|--------------------------------|
A|--------------------------------|
E|-44-444-422-222-200-000-000-000-|




Riff A - Intro, Breakdown
Riff B - Verse
Riff C - Chorus
Riff D - Bridge (last "o-ho-ho, oh-o-o"

It doesn't sound completely right
JenHokama
JenHokama
Ikenai Taiyō

Posts : 832
Join date : 2009-01-29
Age : 25
Location : México

Back to top Go down

for those of you who wanna be like YOH or NAOTO Empty Re: for those of you who wanna be like YOH or NAOTO

Post by JenHokama on Mon Jul 20, 2009 11:24 am

Ikenai Taiyou


Intro:

Rythm

Em C D Em
E|-------------------------------------------------------------------|
B|---8-----5-----7-----8---------------------------------------------|
G|---9-----5-----7-----9---------------------------------------------|
D|---9-----5-----7-----9---------------------------------------------|
A|---7-----3-----5-----7--—------------------------------------------|
E|--------------------------—----------------------------------------|

Lead

E|-----------------|
B|-----------------|
G|----16-----12----|
D|-------14h-------|
A|----------------—|
E|-----------------|


"Na na na na na na ....

E C D E
E|-------------------------------------------------------------------|
B|-------------------------------------------------------------------|
G|---9-x-9-9-9-----5-x-5---—------7-x-7-7-----9-x-9-9----------------|
D|---9-x-9-9-9-----5-x-5------5-5/7-x-7-7-7/9-9-x-9-9-----7/9--------| 2 x
A|---7-x-7-7-7-----3-x-3--3-3—3-3/5-x-5-5-5/7-7-x-7-7-5-5-5/7--------|
E|--------------------------—----------------------------------------|

Funky riff:

E|-------------------------------------------------------------------|
B|-------------------------------------------------------------------|
G|---7/9-9-9p7---7-9--------—----------------------------------------|
D|------------9--------5-6-7-5-----5-7-7/8-8-8p7----7----------------|
A|----------------—--------------6---------------10---10-----5-7-----|
E|--------------------------—------------------------------7---------|


Verse:

Em C D Em E C
E|-------------------------------------------------------------------|
B|---8-x--8--5-x-5----7-x--7---8-x-8--------------------------------|
G|---9-x--9--5-x-5----7-x--7---9-x-9---9-x-9--5-x-5----------------|
D|---9-x--9--5-x-5----7-x--7---9-x-9---9-x-9--5-x-5----------------|
A|---7-x--7--3-x-3----5-x--5---7-x-7—--7-x-7--3-x-3----------------|
E|--------------------------—----------------------------------------|

C D G
E|-------------------------------------------------------------------|
B|-------------------------------------------------------------------|
G|-----------------------—-------------------------------------------|
D|---5-5--7-x-7------------------------------------------------------|
A|---3-3--5-x-5---x-x-5-5---—----------------------------------------|
E|----------------x-x-3-3-------—------------------------------------|

Pre-Chorus:

C D G F# E D A B
E|-------------------------------------------------------------------|
B|-------------------------------------------------------------------|
G|----------------—-----------------2-2-2-2----4-4-4-4---------------|
D|---5-5---7-7------------9--7------2-2-2-2----4-4-4-4---------------|
A|---3-3---5-5----5--4-—--7--5------0-0-0-0----2-2-2-2---------------|
E|----------------3--2--------—--------------------------------------|


Chorus:

Em C D G B Em C C D E
E|-------------------------------------------|-----------------------|
B|--8-------5------7-----------------8----5--|-----------------------|
G|--9-------5------7-—---------------9----5--|-----------------------|
D|--9-------5------7-----5-/-9-------9----5--|--5--7-x-7--9-9-9------|
A|--7-------3------5-—---5-/-9-------7----3--|--3--5-x-5--7-7-7------|
E|-----------------------3-/-7-—-------------|-----------------------|


Solo:

E|-----------------|--------------------------------------------------|
B|-----------------|--------------------------------------------------|
G|----16-----12----|---—14b-(16)-14b-(16)-14b-(16)p12-----12----------|
D|-------14h-------|----------------------------------14h----14-------|
A|----------------—|--------------------------------------------------|
E|-----------------|---------—----------------------------------------|

E|-----------------|----12--------12--------12------------------------|
B|-----------------|----15b-(17)--15b-(17)--15b-(17)------------------|
G|----16-----12----|---—----------------------------------------------|
D|-------14h-------|--------------------------------------------------|
A|----------------—|--------------------------------------------------|
E|-----------------|---------—----------------------------------------|

After solo:

A B
E|--------------------------------------------------------------------------|
B|----------5-----------7---------------------------------------------------|
G|--------5---5-----—-7---7-----------------------------2-2-2---4-4-4---4---|
D|------5-----------7-----------------------------------2-2-2---4-4-4---4---|
A|----3-----------5-—-----------------------7----5------0-0-0---2-2-2---2---|
E|------------------------------3—---2--------------------------------------|

Last Chorus:

Fm C# D# G# C Fm C# C# D# F C# D# C#
E|---------------------------------------------|-----------------------|-----------------|
B|--9--------6------8-----------------9-----6--|-----------------------|-----------------|
G|--10-------6------8-—---------------10----6--|-----------------------|-----------------|
D|--10-------6------8----6-/-10-------10----6--|--6--8-x-8---10-10-10--|---6--8-x-8---6--|
A|--8--------4------6-—--6-/-10-------8-----4--|--4--6-x-6---8--8--8---|---4--6-x-6---4--|
E|-----------------------4-/-8-—---------------|-----------------------|-----------------|


"Na na na na na na ....

F C# D# F
E|---------------------------------------------------------------------------|
B|---------------------------------------------------------------------------|
G|---10-x-10-10-10-----6-x-6---—------8-x-8-8------10-x-10-10----------------|
D|---10-x-10-10-10-----6-x-6------6-6/8-x-8-8-8/10-10-x-10-10-----8/10-------|2x
A|---8--x-8--8--8------4-x-4--4-4—4-4/6-x-6-6-6/8--8--x-8--8--6-6-6/8--------|
E|--------------------------—------------------------------------------------|

Last riff:

E|----------------------------------------------------------------|-----------|
B|----------------------------------------------------------------|-----------|
G|---8/10-10-10p8----8-10--------—--------------------------------|-----------|
D|----------------10--------6-7-8--6-----6-8-8/9-9---9p8----8-----|-----------|
A|----------------—--------------------7-----------------11----11-|---6-8-----|
E|--------------------------—-------------------------------------|-8---------|


| / slide up
| slide down
| h hammer-on
| p pull-off
| ~ vibrato
| + harmonic
| x Mute note
JenHokama
JenHokama
Ikenai Taiyō

Posts : 832
Join date : 2009-01-29
Age : 25
Location : México

Back to top Go down

for those of you who wanna be like YOH or NAOTO Empty Re: for those of you who wanna be like YOH or NAOTO

Post by JenHokama on Mon Jul 20, 2009 11:26 am

Shanghai Honey

|-------------------------|
|-------------------------|
|-2---2-5---5-7---7-5-5-5-| repeat a few times...
|-2---2-5---5-7---7-5-5-5-|
|-0---0-3---3-5---5-3-3-3-|
|-------------------------|

|-----------------|
|-----------------|
|---------7---9---| again, repeat a few times...
|-7---5---7---9---|
|-7---5---5---7---|
|-5---3-----------|

|---------------------------------------------------------------------|
|---------------------------------------------------------------------|
|---------------------------------------------------------------------|
|---------------------------------------------------------------------|
|---------------3--------------------------3-----------------
JenHokama
JenHokama
Ikenai Taiyō

Posts : 832
Join date : 2009-01-29
Age : 25
Location : México

Back to top Go down

for those of you who wanna be like YOH or NAOTO Empty Re: for those of you who wanna be like YOH or NAOTO

Post by JenHokama on Mon Jul 20, 2009 11:31 am

well here is an easier form hehe well i prefer this one

LOVE PAREDE
here r the notes u r going to use

C Cadd9 D7 D7sus4 Dm7 Dm7b5 E7 E7sus4 Fm F G Am7 Am7(11) A7 Am

|-0-| |-0-| |-2-| |-3-| |-1-| |-1-| |-0-| |-0-| |-1-| |-1-| |-3-| |-0-| |-0-| |-0-| |-0-|
|-1-| |-3-| |-1-| |-1-| |-1-| |-1-| |-0-| |-0-| |-1-| |-1-| |-0-| |-1-| |-3-| |-2-| |-1-|
|-0-| |-0-| |-2-| |-2-| |-2-| |-1-| |-1-| |-2-| |-1-| |-2-| |-0-| |-0-| |-0-| |-0-| |-2-|
|-2-| |-2-| |-0-| |-0-| |-0-| |-0-| |-0-| |-0-| |-3-| |-3-| |-0-| |-2-| |-2-| |-2-| |-2-|
|-3-| |-3-| |-x-| |-x-| |-x-| |-x-| |-2-| |-2-| |-3-| |-3-| |-2-| |-0-| |-0-| |-0-| |-0-|
|-x-| |-x-| |-x-| |-x-| |-x-| |-x-| |-0-| |-0-| |-1-| |-1-| |-3-| |-x-| |-x-| |-x-| |-x-|


Intro
C, Cadd9, C, E7, E7sus4, E7, Am7, Am7(11), Am7, F

C
asita orennchi kurutte sa kimiga ikinari iu kara sa
E7
konnna jikann kara souji, tanoshikatta kyou no kaerimiti
Am7
futo omoidasiwarai shizenn to niyakera gozen yoji
F Fm
nugippanashi no kutusita ya,hokorimamire no honndana
C
douyara asamade kakattyaisoudana konnya wa(^_^Wink
E7
nomenai burakkukohi nemukezamasini ikinomi
Am7 F
kimino warattatokini hosokunarame waraigoe tittyanate tonikaku subetega
G
orewo ugokasiterunndane

F G
uradoori kimi wo omoi, kyoumo sugiteku

C Cadd9 C E7 E7sus4 E7 Am7 Am7(11) Am7 D7 D7sus4 D7
kokorode kimiwo dakishimeru imawa sukosidake aiwo sinnjireru
F G C A7
darekaga irukara tuyokunatteku kodokudato sitemo
Dm7 Dm7b5 G C
so***e ima bokuwa darekano tameni irunnda

Cadd9 C
oh baby, kono bashode kimito deai
E7 E7sus4 E7
oh baby, kimino egao tomono atooshiwo
Am7 Am7(11) Am7
oh baby, chikaranikae tsukisusume
Fm
oh baby, kimito bokuno love parade

C E7
kimino hitomiwo mirutabi hushigina kimochini natteku
Am F Fm
yasashikattari setsunakattari
C E7
haruka tookuno ginngani tsutsumareteiru youna
Am F G
totemo ikokotiyokute itumademo mitumetetai

F G
tsukiakari bokuwo terashi hagema***ekureru

C Cadd9 C E7 E7sus4 E7 Am7 Am7(11) Am7 D7 D7sus4 D7
kokorode kimiwo mitsumeteru sobani irudakede aiwo kannjireru
F G C A7
kotobanidekinai sunaoninarenai bukiyouni bokunarini
Dm7 Dm7b5 G F
zutto korekaramo nigitta tedakewa hanasanaikara

Fm
oh baby, kimito bokuno love parade

C Cadd9 C E7 E7sus4 E7 Am7 Am7(11) Am7 D7 D7sus4 D7
kokorode kimiwo dakishimeru imawasukoshidake aiwo shinnjireru
F G C A7
darekaga irukara tsuyokunatteiku kodokudato sitemo
Dm7 Dm7b5 G C
sosite ima bokuwa darekanotameni irunnda

C Cadd9 C
ippomo fumidasenakatta, kizutsukukotowo tada osoretannda
E7 E7sus4 E7 Am7
konna jibunndakaranannte nayannde kuyannde yannde dasukotae
Am7(11) Am7 Fm
terasu hiwa mabushikute kabega aruyoude setsunakute taerenaku egaku enaku nigeru oreni
C Cadd9 C E7
E7sus4
kimiwa te sashinobete makenaidette sokode ore yatto kizuita kabenannka nakatta
E7 Am7 Am7(11) Am7 Fm
jibunnde tsukuttomonndatta kiminihure kokorohurueru kimotinihureru mounamida osae
C
mijukudemo susume mae e

Cadd9 C
oh baby, kono basyode kimito deai
E7 E7sus4 E7
oh baby, kimino egao tomono atooshiwo
Am7 Am7(11) Am7
oh baby, chikaranikae tsukisusume
Fm
oh baby, kimito bokuno love parade


*~*~*~*~*~*~*~*~*~*~*~*~*~*~*~*~*~*~*~*~*
][Intro Riff (Background) = 00.00-00.16][

1 . 2 . 3 . 4 . |1 . 2 . 3 . 4 . |1 . 2 . 3 . 4 . |1 . 2 . 3 . 4 . |
e|---------1------|------1---------|-------3--------|----3-----------|
B|-----1-------1--|1--1-----1--1---|---1-------1--1-|-1-----1--1-----|
G|--2-------------|----------------|2---------------|----------------|
D|----------------|----------------|----------------|----------------|
A|----------------|----------------|----------------|----------------|
E|----------------|----------------|----------------|----------------|

1 . 2 . 3 . 4 . |1 . 2 . 3 . 4 . |1 . 2 . 3 . 4 . |1 . 2 . 3 . 4 . |
e|---------1------|------1---------|-------3--------|----3-----------|
B|-----1-------1--|1--1-----1--1---|---1-------1--1-|-1--------------|
G|--2-------------|----------------|2---------------|----------------|
D|----------------|----------------|----------------|----------------|
A|----------------|----------------|----------------|----------------|
E|----------------|----------------|----------------|----------------|


*~*~*~*~*~*~*~*~*~*~*~*~*~*~*~*~*~*~*~*~*~*~*~*~
][1st Electric Riff (Foreground) = 00.16-00.31][

Please bare with me here. I'm not sure if this is a bass or a guitar part and the tabs
too simple however I've written them as if it were for a guitar. Can be improved and revised.

1 . 2 . 3 . 4 . |1 . 2 . 3 . 4 . |1 . 2 . 3 . 4 . |1 . 2 . 3 . 4 . |1 . 2 . 3 . 4 . |
e|----------------|----------------|----------------|----------------|----------------|
B|----------------|----------------|----------------|----------------|----------------|
G|----------------|----------------|----------------|----------------|----------------|
D|----------------|----------------|----------------|----------------|5-5--3-3--2-2-2-|
A|--2>3--3--3----3|--3-3--3-5-5-3-3|-7-7---2>3--3--3|----3-3-3--3----|----------------|
E|----------------|----------------|----------------|----------------|----------------|

1 . 2 . 3 . 4 . |1 . 2 . 3 . 4 . |1 . 2 . 3 . 4 . |1 . 2 . 3 . 4 . |1 . 2 . 3 . 4 . |
e|----------------|----------------|----------------|----------------|----------------|
B|----------------|----------------|----------------|----------------|----------------|
G|----------------|----------------|----------------|----------------|----------------|
D|----------------|----------------|----------------|----------------|----------------|
A|--2>3--3--3----3|--3-3--3-5-5-3-3|-7-7---2>3--3--3|----3-3-3--3>3--|----------------|
E|----------------|----------------|----------------|----------------|----------------|


*~*~*~*~*~*~*~*~*~*~*~*~*~*~*~*~*~*~*~*~*~*~*~*~
][2nd Electric Riff (Background) = 00.31-00.47][

Basically this bit just repeats itself over and over even though it sounds like it's
This is relitively easy to learn after about a few days practicing.

1 . 2 . 3 . 4 . |1 . 2 . 3 . 4 . |1 . 2 . 3 . 4 . |
e|-----------0----|----------0-----|---------0------|
B|-----1--3-----1-|----1--3-----1--|---1--3-----1---|
G|--2-------------|-2--------------|2--------------2|
D|----------------|----------------|----------------|
A|----------------|----------------|----------------|
E|----------------|----------------|----------------|

1 . 2 . 3 . 4 . |1 . 2 . 3 . 4 . |1 . 2 . 3 . 4 . |
e|-----------0----|----------0-----|---------3--0---|
B|-----1--3-----1-|----1--3-----1--|---1--3--------1|
G|----------------|-2--------------|2---------------|
D|----------------|----------------|----------------|
A|----------------|----------------|----------------|
E|----------------|----------------|----------------|

1 . 2 . 3 . 4 . |1 . 2 . 3 . 4 . |1 . 2 . 3 . 4 . |
e|-----------0----|----------0-----|---------0------|
B|-----1--3-----1-|----1--3-----1--|---1--3-----1---|
G|--2-------------|-2--------------|2--------------2|
D|----------------|----------------|----------------|
A|----------------|----------------|----------------|
E|----------------|----------------|----------------|

1 . 2 . 3 . 4 . |1 . 2 . 3 . 4 . |1 . 2 . 3 . 4 . |
e|-----------0----|----------0-----|---------3--0---|
B|-----1--3-----1-|----1--3-----1--|---1--3--------1|
G|----------------|-2--------------|2---------------|
D|----------------|----------------|----------------|
A|----------------|----------------|----------------|
E|----------------|----------------|----------------|


*~*~*~*~*~*~*~*~*~*~*~*~*~*~*~*~*~*~*~*~*~
][3rd Electric (Foreground) = 00.47-00.54][

Again with this bit, I'm not sure if this is for the bass or guitar and is in guitar
It's hard for me bacuse I have a classical acoustic and it's difficult to tell.

1 . 2 . 3 . 4 . |1 . 2 . 3 . 4 . |1 . 2 . 3 . 4 . |
e|----------------|----------------|----------------|
B|----------------|----------------|----------------|
G|----------------|----------------|----------------|
D|---3---3--3-3>2-|--2--2-2>0--0--0|-0--------------|
A|----------------|----------------|----------------|
E|----------------|----------------|-----3--3--3-3--|


pliz if anyone can help me..help me! hehe

i leave now...i´m going to check something about love paredo...
JenHokama
JenHokama
Ikenai Taiyō

Posts : 832
Join date : 2009-01-29
Age : 25
Location : México

Back to top Go down

for those of you who wanna be like YOH or NAOTO Empty Re: for those of you who wanna be like YOH or NAOTO

Post by IchaIchaMako on Wed Jul 22, 2009 2:20 am

wow this is awesome!!! makes me wanna play guitar again XD ima print it n try it with my bros guitar lol thanx jen-chan!
IchaIchaMako
IchaIchaMako
ORANGE RANGE

Posts : 2386
Join date : 2009-01-25
Location : Icha Icha Paradise with Naoto-sama

http://justmako.livejournal.com

Back to top Go down

for those of you who wanna be like YOH or NAOTO Empty Re: for those of you who wanna be like YOH or NAOTO

Post by JenHokama on Wed Jul 22, 2009 10:20 am

ur welcome!!
and pliz...if u find a mistake tell me
JenHokama
JenHokama
Ikenai Taiyō

Posts : 832
Join date : 2009-01-29
Age : 25
Location : México

Back to top Go down

for those of you who wanna be like YOH or NAOTO Empty Re: for those of you who wanna be like YOH or NAOTO

Post by IchaIchaMako on Wed Jul 22, 2009 9:08 pm

hahaha ok i will try, actually i almost forgot how to read guitar tab XD
IchaIchaMako
IchaIchaMako
ORANGE RANGE

Posts : 2386
Join date : 2009-01-25
Location : Icha Icha Paradise with Naoto-sama

http://justmako.livejournal.com

Back to top Go down

for those of you who wanna be like YOH or NAOTO Empty Re: for those of you who wanna be like YOH or NAOTO

Post by ORANGERANGER on Tue Aug 04, 2009 10:14 am

Actually I have these. They are available for all their albums up to ORANGE RANGE. Unfortunately, they have not released one for PANIC FANCY. Crying or Very sad

But just for clarification, these include parts for EVERY instrument featured in the songs. So, you could in effect, recreate all their songs if you had all the instruments.

ORANGERANGER
Michishirube

Posts : 19
Join date : 2009-08-04
Age : 28

Back to top Go down

for those of you who wanna be like YOH or NAOTO Empty Re: for those of you who wanna be like YOH or NAOTO

Post by IchaIchaMako on Tue Aug 04, 2009 10:20 pm

i think they will release PANIC FANCY tab later in the future Very Happy lets look forward to it!
IchaIchaMako
IchaIchaMako
ORANGE RANGE

Posts : 2386
Join date : 2009-01-25
Location : Icha Icha Paradise with Naoto-sama

http://justmako.livejournal.com

Back to top Go down

for those of you who wanna be like YOH or NAOTO Empty Re: for those of you who wanna be like YOH or NAOTO

Post by Ruruu_myu on Wed Aug 05, 2009 3:58 am

unfortunately I cant play the guitar .. T_T
so i cant singing OR song with playing guitar.. =='
Ruruu_myu
Ruruu_myu
Ikenai Taiyō

Posts : 988
Join date : 2008-11-17
Age : 27
Location : I N D O N E S I A

http://ruumyu.blogspot.com

Back to top Go down

for those of you who wanna be like YOH or NAOTO Empty Re: for those of you who wanna be like YOH or NAOTO

Post by aoibara on Wed Aug 05, 2009 4:44 am

don't worry ruu-neesan, i same with u Embarassed
aoibara
aoibara
Ika Summer

Posts : 704
Join date : 2009-03-25
Age : 25
Location : Indonesia

Back to top Go down

for those of you who wanna be like YOH or NAOTO Empty Re: for those of you who wanna be like YOH or NAOTO

Post by Sponsored content


Sponsored content


Back to top Go down

Page 1 of 2 1, 2  Next

Back to top


 
Permissions in this forum:
You cannot reply to topics in this forum